ISO-10303-21;
HEADER;
/* Generated by software containing ST-Developer
 * from STEP Tools, Inc. (www.steptools.com) 
 */

FILE_DESCRIPTION(
/* description */ (''),
/* implementation_level */ '2;1');

FILE_NAME(
/* name */ 'FCR159777.stp',
/* time_stamp */ '2025-10-02T09:42:15+01:00',
/* author */ ('TOttley'),
/* organization */ (''),
/* preprocessor_version */ 'ST-DEVELOPER v20',
/* originating_system */ 'Autodesk Inventor 2025',
/* authorisation */ '');

FILE_SCHEMA (('AUTOMOTIVE_DESIGN { 1 0 10303 214 3 1 1 }'));
ENDSEC;

DATA;
#10=MECHANICAL_DESIGN_GEOMETRIC_PRESENTATION_REPRESENTATION('',(#13),#264);
#11=SHAPE_REPRESENTATION_RELATIONSHIP('SRR','None',#271,#12);
#12=ADVANCED_BREP_SHAPE_REPRESENTATION('',(#14),#263);
#13=STYLED_ITEM('',(#280),#14);
#14=MANIFOLD_SOLID_BREP('Solid1',#137);
#15=PLANE('',#168);
#16=PLANE('',#172);
#17=PLANE('',#178);
#18=FACE_BOUND('',#39,.T.);
#19=FACE_BOUND('',#42,.T.);
#20=FACE_BOUND('',#45,.T.);
#21=SPHERICAL_SURFACE('',#164,10.);
#22=CYLINDRICAL_SURFACE('',#162,1.15);
#23=CYLINDRICAL_SURFACE('',#166,3.1);
#24=CYLINDRICAL_SURFACE('',#170,2.25);
#25=CYLINDRICAL_SURFACE('',#174,2.05);
#26=FACE_OUTER_BOUND('',#36,.T.);
#27=FACE_OUTER_BOUND('',#37,.T.);
#28=FACE_OUTER_BOUND('',#38,.T.);
#29=FACE_OUTER_BOUND('',#40,.T.);
#30=FACE_OUTER_BOUND('',#41,.T.);
#31=FACE_OUTER_BOUND('',#43,.T.);
#32=FACE_OUTER_BOUND('',#44,.T.);
#33=FACE_OUTER_BOUND('',#46,.T.);
#34=FACE_OUTER_BOUND('',#47,.T.);
#35=FACE_OUTER_BOUND('',#48,.T.);
#36=EDGE_LOOP('',(#95,#96,#97));
#37=EDGE_LOOP('',(#98,#99,#100,#101));
#38=EDGE_LOOP('',(#102));
#39=EDGE_LOOP('',(#103));
#40=EDGE_LOOP('',(#104,#105,#106,#107));
#41=EDGE_LOOP('',(#108));
#42=EDGE_LOOP('',(#109));
#43=EDGE_LOOP('',(#110,#111,#112,#113));
#44=EDGE_LOOP('',(#114));
#45=EDGE_LOOP('',(#115));
#46=EDGE_LOOP('',(#116,#117,#118,#119));
#47=EDGE_LOOP('',(#120,#121,#122,#123));
#48=EDGE_LOOP('',(#124));
#49=CIRCLE('',#161,1.15);
#50=CIRCLE('',#163,1.15);
#51=CIRCLE('',#165,3.1);
#52=CIRCLE('',#167,3.1);
#53=CIRCLE('',#169,2.25);
#54=CIRCLE('',#171,2.25);
#55=CIRCLE('',#173,2.05);
#56=CIRCLE('',#175,2.05);
#57=CIRCLE('',#177,1.5);
#58=LINE('',#229,#64);
#59=LINE('',#233,#65);
#60=LINE('',#241,#66);
#61=LINE('',#248,#67);
#62=LINE('',#255,#68);
#63=LINE('',#259,#69);
#64=VECTOR('',#183,0.575);
#65=VECTOR('',#188,1.15);
#66=VECTOR('',#199,3.1);
#67=VECTOR('',#208,2.25);
#68=VECTOR('',#217,2.05);
#69=VECTOR('',#222,1.775);
#70=VERTEX_POINT('',#227);
#71=VERTEX_POINT('',#228);
#72=VERTEX_POINT('',#232);
#73=VERTEX_POINT('',#236);
#74=VERTEX_POINT('',#239);
#75=VERTEX_POINT('',#243);
#76=VERTEX_POINT('',#246);
#77=VERTEX_POINT('',#250);
#78=VERTEX_POINT('',#253);
#79=VERTEX_POINT('',#257);
#80=EDGE_CURVE('',#70,#71,#58,.T.);
#81=EDGE_CURVE('',#71,#71,#49,.T.);
#82=EDGE_CURVE('',#71,#72,#59,.T.);
#83=EDGE_CURVE('',#72,#72,#50,.T.);
#84=EDGE_CURVE('',#73,#73,#51,.T.);
#85=EDGE_CURVE('',#74,#74,#52,.T.);
#86=EDGE_CURVE('',#74,#73,#60,.T.);
#87=EDGE_CURVE('',#75,#75,#53,.T.);
#88=EDGE_CURVE('',#76,#76,#54,.T.);
#89=EDGE_CURVE('',#76,#75,#61,.T.);
#90=EDGE_CURVE('',#77,#77,#55,.T.);
#91=EDGE_CURVE('',#78,#78,#56,.T.);
#92=EDGE_CURVE('',#78,#77,#62,.T.);
#93=EDGE_CURVE('',#79,#79,#57,.T.);
#94=EDGE_CURVE('',#79,#78,#63,.T.);
#95=ORIENTED_EDGE('',*,*,#80,.T.);
#96=ORIENTED_EDGE('',*,*,#81,.F.);
#97=ORIENTED_EDGE('',*,*,#80,.F.);
#98=ORIENTED_EDGE('',*,*,#81,.T.);
#99=ORIENTED_EDGE('',*,*,#82,.T.);
#100=ORIENTED_EDGE('',*,*,#83,.F.);
#101=ORIENTED_EDGE('',*,*,#82,.F.);
#102=ORIENTED_EDGE('',*,*,#84,.F.);
#103=ORIENTED_EDGE('',*,*,#83,.T.);
#104=ORIENTED_EDGE('',*,*,#85,.F.);
#105=ORIENTED_EDGE('',*,*,#86,.T.);
#106=ORIENTED_EDGE('',*,*,#84,.T.);
#107=ORIENTED_EDGE('',*,*,#86,.F.);
#108=ORIENTED_EDGE('',*,*,#85,.T.);
#109=ORIENTED_EDGE('',*,*,#87,.F.);
#110=ORIENTED_EDGE('',*,*,#88,.F.);
#111=ORIENTED_EDGE('',*,*,#89,.T.);
#112=ORIENTED_EDGE('',*,*,#87,.T.);
#113=ORIENTED_EDGE('',*,*,#89,.F.);
#114=ORIENTED_EDGE('',*,*,#88,.T.);
#115=ORIENTED_EDGE('',*,*,#90,.F.);
#116=ORIENTED_EDGE('',*,*,#91,.F.);
#117=ORIENTED_EDGE('',*,*,#92,.T.);
#118=ORIENTED_EDGE('',*,*,#90,.T.);
#119=ORIENTED_EDGE('',*,*,#92,.F.);
#120=ORIENTED_EDGE('',*,*,#93,.F.);
#121=ORIENTED_EDGE('',*,*,#94,.T.);
#122=ORIENTED_EDGE('',*,*,#91,.T.);
#123=ORIENTED_EDGE('',*,*,#94,.F.);
#124=ORIENTED_EDGE('',*,*,#93,.T.);
#125=CONICAL_SURFACE('',#160,0.575,0.785398163397449);
#126=CONICAL_SURFACE('',#176,1.775,0.374333616007583);
#127=ADVANCED_FACE('',(#26),#125,.F.);
#128=ADVANCED_FACE('',(#27),#22,.F.);
#129=ADVANCED_FACE('',(#28,#18),#21,.T.);
#130=ADVANCED_FACE('',(#29),#23,.T.);
#131=ADVANCED_FACE('',(#30,#19),#15,.T.);
#132=ADVANCED_FACE('',(#31),#24,.T.);
#133=ADVANCED_FACE('',(#32,#20),#16,.T.);
#134=ADVANCED_FACE('',(#33),#25,.T.);
#135=ADVANCED_FACE('',(#34),#126,.T.);
#136=ADVANCED_FACE('',(#35),#17,.T.);
#137=CLOSED_SHELL('',(#127,#128,#129,#130,#131,#132,#133,#134,#135,#136));
#138=DERIVED_UNIT_ELEMENT(#141,1.);
#139=DERIVED_UNIT_ELEMENT(#266,-3.);
#140=DIMENSIONAL_EXPONENTS(0.,1.,0.,0.,0.,0.,0.);
#141=(
CONVERSION_BASED_UNIT('gram',#143)
MASS_UNIT()
NAMED_UNIT(#140)
);
#142=(
MASS_UNIT()
NAMED_UNIT(*)
SI_UNIT(.KILO.,.GRAM.)
);
#143=MASS_MEASURE_WITH_UNIT(MASS_MEASURE(0.001),#142);
#144=DERIVED_UNIT((#138,#139));
#145=MEASURE_REPRESENTATION_ITEM('density measure',
POSITIVE_RATIO_MEASURE(1.),#144);
#146=PROPERTY_DEFINITION_REPRESENTATION(#151,#148);
#147=PROPERTY_DEFINITION_REPRESENTATION(#152,#149);
#148=REPRESENTATION('material name',(#150),#263);
#149=REPRESENTATION('density',(#145),#263);
#150=DESCRIPTIVE_REPRESENTATION_ITEM('Generic','Generic');
#151=PROPERTY_DEFINITION('material property','material name',#273);
#152=PROPERTY_DEFINITION('material property','density of part',#273);
#153=DATE_TIME_ROLE('creation_date');
#154=APPLIED_DATE_AND_TIME_ASSIGNMENT(#155,#153,(#273));
#155=DATE_AND_TIME(#156,#157);
#156=CALENDAR_DATE(2012,18,5);
#157=LOCAL_TIME(0,0,0.,#158);
#158=COORDINATED_UNIVERSAL_TIME_OFFSET(0,0,.BEHIND.);
#159=AXIS2_PLACEMENT_3D('',#225,#179,#180);
#160=AXIS2_PLACEMENT_3D('',#226,#181,#182);
#161=AXIS2_PLACEMENT_3D('',#230,#184,#185);
#162=AXIS2_PLACEMENT_3D('',#231,#186,#187);
#163=AXIS2_PLACEMENT_3D('',#234,#189,#190);
#164=AXIS2_PLACEMENT_3D('',#235,#191,#192);
#165=AXIS2_PLACEMENT_3D('',#237,#193,#194);
#166=AXIS2_PLACEMENT_3D('',#238,#195,#196);
#167=AXIS2_PLACEMENT_3D('',#240,#197,#198);
#168=AXIS2_PLACEMENT_3D('',#242,#200,#201);
#169=AXIS2_PLACEMENT_3D('',#244,#202,#203);
#170=AXIS2_PLACEMENT_3D('',#245,#204,#205);
#171=AXIS2_PLACEMENT_3D('',#247,#206,#207);
#172=AXIS2_PLACEMENT_3D('',#249,#209,#210);
#173=AXIS2_PLACEMENT_3D('',#251,#211,#212);
#174=AXIS2_PLACEMENT_3D('',#252,#213,#214);
#175=AXIS2_PLACEMENT_3D('',#254,#215,#216);
#176=AXIS2_PLACEMENT_3D('',#256,#218,#219);
#177=AXIS2_PLACEMENT_3D('',#258,#220,#221);
#178=AXIS2_PLACEMENT_3D('',#260,#223,#224);
#179=DIRECTION('axis',(0.,0.,1.));
#180=DIRECTION('refdir',(1.,0.,0.));
#181=DIRECTION('center_axis',(0.,1.,0.));
#182=DIRECTION('ref_axis',(1.,0.,0.));
#183=DIRECTION('',(-0.707106781186548,0.707106781186547,-8.65956056235494E-17));
#184=DIRECTION('center_axis',(0.,-1.,0.));
#185=DIRECTION('ref_axis',(1.,0.,0.));
#186=DIRECTION('center_axis',(0.,-1.,0.));
#187=DIRECTION('ref_axis',(1.,0.,0.));
#188=DIRECTION('',(0.,1.,0.));
#189=DIRECTION('center_axis',(0.,-1.,0.));
#190=DIRECTION('ref_axis',(1.,0.,0.));
#191=DIRECTION('center_axis',(6.12323399573677E-17,0.,1.));
#192=DIRECTION('ref_axis',(1.,0.,0.));
#193=DIRECTION('center_axis',(0.,-1.,0.));
#194=DIRECTION('ref_axis',(1.,0.,0.));
#195=DIRECTION('center_axis',(0.,-1.,0.));
#196=DIRECTION('ref_axis',(1.,0.,0.));
#197=DIRECTION('center_axis',(0.,-1.,0.));
#198=DIRECTION('ref_axis',(1.,0.,0.));
#199=DIRECTION('',(0.,1.,0.));
#200=DIRECTION('center_axis',(0.,-1.,0.));
#201=DIRECTION('ref_axis',(0.,0.,-1.));
#202=DIRECTION('center_axis',(0.,-1.,0.));
#203=DIRECTION('ref_axis',(1.,0.,0.));
#204=DIRECTION('center_axis',(0.,-1.,0.));
#205=DIRECTION('ref_axis',(1.,0.,0.));
#206=DIRECTION('center_axis',(0.,-1.,0.));
#207=DIRECTION('ref_axis',(1.,0.,0.));
#208=DIRECTION('',(0.,1.,0.));
#209=DIRECTION('center_axis',(0.,-1.,0.));
#210=DIRECTION('ref_axis',(0.,0.,-1.));
#211=DIRECTION('center_axis',(0.,-1.,0.));
#212=DIRECTION('ref_axis',(1.,0.,0.));
#213=DIRECTION('center_axis',(0.,-1.,0.));
#214=DIRECTION('ref_axis',(1.,0.,0.));
#215=DIRECTION('center_axis',(0.,-1.,0.));
#216=DIRECTION('ref_axis',(1.,0.,0.));
#217=DIRECTION('',(0.,1.,0.));
#218=DIRECTION('center_axis',(0.,1.,0.));
#219=DIRECTION('ref_axis',(1.,0.,0.));
#220=DIRECTION('center_axis',(0.,-1.,0.));
#221=DIRECTION('ref_axis',(1.,0.,0.));
#222=DIRECTION('',(-0.365652372422993,0.930751493440347,-4.47795007488454E-17));
#223=DIRECTION('center_axis',(0.,-1.,0.));
#224=DIRECTION('ref_axis',(0.,0.,-1.));
#225=CARTESIAN_POINT('',(0.,0.,0.));
#226=CARTESIAN_POINT('Origin',(0.,-6.325,0.));
#227=CARTESIAN_POINT('',(0.,-6.9,0.));
#228=CARTESIAN_POINT('',(-1.15,-5.75,-1.40834381901946E-16));
#229=CARTESIAN_POINT('',(-0.575,-6.325,-7.04171909509728E-17));
#230=CARTESIAN_POINT('Origin',(0.,-5.75,0.));
#231=CARTESIAN_POINT('Origin',(0.,-1.25817254175263,0.));
#232=CARTESIAN_POINT('',(-1.15,3.23365491649473,-1.40834381901946E-16));
#233=CARTESIAN_POINT('',(-1.15,-1.25817254175263,-1.40834381901946E-16));
#234=CARTESIAN_POINT('Origin',(0.,3.23365491649473,0.));
#235=CARTESIAN_POINT('Origin',(1.73460090822865E-33,-6.7,0.));
#236=CARTESIAN_POINT('',(-3.1,2.80736556570746,-3.7964050773568E-16));
#237=CARTESIAN_POINT('Origin',(0.,2.80736556570746,0.));
#238=CARTESIAN_POINT('Origin',(0.,1.90368278285373,0.));
#239=CARTESIAN_POINT('',(-3.1,1.,-3.7964050773568E-16));
#240=CARTESIAN_POINT('Origin',(0.,1.,0.));
#241=CARTESIAN_POINT('',(-3.1,1.90368278285373,-3.7964050773568E-16));
#242=CARTESIAN_POINT('Origin',(2.675,1.,0.));
#243=CARTESIAN_POINT('',(-2.25,1.,-2.75545529808155E-16));
#244=CARTESIAN_POINT('Origin',(0.,1.,0.));
#245=CARTESIAN_POINT('Origin',(0.,0.5,0.));
#246=CARTESIAN_POINT('',(-2.25,0.,-2.75545529808155E-16));
#247=CARTESIAN_POINT('Origin',(0.,0.,0.));
#248=CARTESIAN_POINT('',(-2.25,0.5,-2.75545529808155E-16));
#249=CARTESIAN_POINT('Origin',(2.15,1.3164953090834E-16,0.));
#250=CARTESIAN_POINT('',(-2.05,0.,-2.51052593825207E-16));
#251=CARTESIAN_POINT('Origin',(0.,0.,0.));
#252=CARTESIAN_POINT('Origin',(0.,-3.5,0.));
#253=CARTESIAN_POINT('',(-2.05,-7.,-2.51052593825207E-16));
#254=CARTESIAN_POINT('Origin',(0.,-7.,0.));
#255=CARTESIAN_POINT('',(-2.05,-3.5,-2.51052593825207E-16));
#256=CARTESIAN_POINT('Origin',(0.,-7.7,0.));
#257=CARTESIAN_POINT('',(-1.5,-8.4,-1.83697019872103E-16));
#258=CARTESIAN_POINT('Origin',(0.,-8.4,0.));
#259=CARTESIAN_POINT('',(-1.775,-7.7,-2.17374806848655E-16));
#260=CARTESIAN_POINT('Origin',(0.75,-8.4,0.));
#261=UNCERTAINTY_MEASURE_WITH_UNIT(LENGTH_MEASURE(0.01),#265,
'DISTANCE_ACCURACY_VALUE',
'Maximum model space distance between geometric entities at asserted c
onnectivities');
#262=UNCERTAINTY_MEASURE_WITH_UNIT(LENGTH_MEASURE(0.01),#265,
'DISTANCE_ACCURACY_VALUE',
'Maximum model space distance between geometric entities at asserted c
onnectivities');
#263=(
GEOMETRIC_REPRESENTATION_CONTEXT(3)
GLOBAL_UNCERTAINTY_ASSIGNED_CONTEXT((#261))
GLOBAL_UNIT_ASSIGNED_CONTEXT((#265,#267,#268))
REPRESENTATION_CONTEXT('','3D')
);
#264=(
GEOMETRIC_REPRESENTATION_CONTEXT(3)
GLOBAL_UNCERTAINTY_ASSIGNED_CONTEXT((#262))
GLOBAL_UNIT_ASSIGNED_CONTEXT((#265,#267,#268))
REPRESENTATION_CONTEXT('','3D')
);
#265=(
LENGTH_UNIT()
NAMED_UNIT(*)
SI_UNIT(.MILLI.,.METRE.)
);
#266=(
LENGTH_UNIT()
NAMED_UNIT(*)
SI_UNIT(.CENTI.,.METRE.)
);
#267=(
NAMED_UNIT(*)
PLANE_ANGLE_UNIT()
SI_UNIT($,.RADIAN.)
);
#268=(
NAMED_UNIT(*)
SI_UNIT($,.STERADIAN.)
SOLID_ANGLE_UNIT()
);
#269=SHAPE_DEFINITION_REPRESENTATION(#270,#271);
#270=PRODUCT_DEFINITION_SHAPE('',$,#273);
#271=SHAPE_REPRESENTATION('',(#159),#263);
#272=PRODUCT_DEFINITION_CONTEXT('part definition',#277,'design');
#273=PRODUCT_DEFINITION('Blanking Plug','FCR159777 Blanking Plug',#274,
#272);
#274=PRODUCT_DEFINITION_FORMATION('',$,#279);
#275=PRODUCT_RELATED_PRODUCT_CATEGORY('FCR159777 Blanking Plug',
'FCR159777 Blanking Plug',(#279));
#276=APPLICATION_PROTOCOL_DEFINITION('international standard',
'automotive_design',2009,#277);
#277=APPLICATION_CONTEXT(
'Core Data for Automotive Mechanical Design Process');
#278=PRODUCT_CONTEXT('part definition',#277,'mechanical');
#279=PRODUCT('Blanking Plug','FCR159777 Blanking Plug',$,(#278));
#280=PRESENTATION_STYLE_ASSIGNMENT((#281));
#281=SURFACE_STYLE_USAGE(.BOTH.,#284);
#282=SURFACE_STYLE_RENDERING_WITH_PROPERTIES($,#288,(#283));
#283=SURFACE_STYLE_TRANSPARENT(0.);
#284=SURFACE_SIDE_STYLE('',(#285,#282));
#285=SURFACE_STYLE_FILL_AREA(#286);
#286=FILL_AREA_STYLE('',(#287));
#287=FILL_AREA_STYLE_COLOUR('',#288);
#288=COLOUR_RGB('',0.698039215686274,0.,0.);
ENDSEC;
END-ISO-10303-21;
